你的当前位置: 吉他谱生活 > 吉他技巧 > >

如何把伴奏弹得更有味道:装饰和弦

发布时间:2015年07月17日19:08 来源:gtelife 浏览次数:129
   

如何把伴奏弹得更有味道:装饰和弦

你是否已经厌倦了左手死按着和弦不放,右手一遍又一遍的重复相同的拨弦顺序(53231323、54321234、532123等)?你是否正在盘算着如何把伴奏弹得更有味道一些?看看下面这个2个简单和弦——Em和C——的段子,你或许会得到一点启发。

首先还是按照普通的右手伴奏指型,把两个和弦弹几遍:C

╓───┬───┬───┬───┐

╟─●─┼───┼───┼───┤

╟───┼───┼───┼───┤

╟───┼─●─┼───┼───┤

╟───┼───┼─●─┼───┤

╙───┴───┴───┴───┘Em

╓───┬───┬───┬───┐

╟───┼───┼───┼───┤

╟───┼───┼───┼───┤

╟───┼─●─┼───┼───┤

╟───┼─●─┼───┼───┤

╙───┴───┴───┴───┘

然后再弹下面这个段子: Em C

E||----------------------------|-----------------------------|

B||----------------------------|-----------------------------|

G||--------0-----0-------------|--------0--------0-----------|

D||--2--------------2-----2----|-----2-----2--4-----4--2-----|

A||-----2-----2--------2-------|--3--------------------------|

E||----------------------------|-----------------------------|

Em C

----------------------------|----------------------------|

----------------------------|----------------------------|

--------0-----0-------------|--------0--------0----------|

--2--------------2-----2----|-----2-----2--4-----4--2----|

-----2-----2--------2-------|--3-------------------------|

----------------------------|----------------------------|

Em C

----------------------------|----------------------------|

----------------------------|----------------------------|

--------0-----0-------------|--------0--------0----------|

--2--------------2-----2----|-----2-----2--4-----4--2----|

-----2-----2--------2-------|--3-------------------------|

----------------------------|----------------------------|

Em C Em

----------------------------|----------------------------|--0----------------||

----------------------------|----------------------------|--0----------------||

--------0-----0-------------|--------0--------0----------|--0----------------||

--2--------------2-----2----|-----2-----2--4-----4--2----|--2----------------||

-----2-----2--------2-------|--3-------------------------|--2----------------||

----------------------------|----------------------------|--0----------------||

是不是比前面的好听多了?这个例子就是告诉我们,在弹琴的时候,要勇于对和弦进行一点修饰。所谓“修饰”,就是围绕着和弦,加入一些装饰音(像勾弦音和锤弦音等),或者改变右手的拨弦顺序。这样,一个和弦就有无数种修饰方式了!

单独一个和弦就像主料,修饰的内容就像佐料,把它们放到一起进行合理的搭配,就是一道美味佳肴。希望本文能抛砖引玉,激发你的创造力,总有一天,你会做出自己的拿手好菜的!

上一篇:上一篇:练习民谣吉他的揉弦技巧 下一篇:下一篇:吉他演奏勾弦(和击弦)

相关关键词搜索:如何把伴奏弹得更有味道:装饰和弦

您可能也感兴趣: